Voglia - Andrea Sannino

INSERIRE VIDEO E LINK AMAZON NELLO SPAZIO DIV
INSERIRE VIDEO
INSERIRE TESTO E ACCORDI NELLO SPAZIO PRE DATA
Thunder Transposer
   F#      F#sus4    F#5
e|-----0-------0---|-----0-----4----\2---|
B|-----------------|-----------0---------|
G|-0h1---1-1h2---2-|-2/4---2/4----4----2-|
D|-----------------|---------------------|
A|-----------------|---------------------|
E|-0-------0-------|-0-------------------|
 
   F#         G#m7add11 F#/A#
e|-----0----------2---|------------------|
B|-------0------0---0-|------------------|
G|-0h1-----1--2-------|-2/4--------------|
D|--------------------|------------------|
A|--------------------|------------------|
E|-0----------2-------|-2/4--------------|
 
F#  F#sus4  F#5  F#  G#m7  F#/A#

               Bmaj7   G#m7  C#7sus4
Si l’ammore se perde
                 F# F#sus4 F#
Nun ‘o puó cancellá
A#m7              Bmaj7  G#m7 B/C#
 Pecchè chello ca resta
               A#m7 D#7
Te serve pe’campà
            Bmaj7 Cdim
E si rimane sulo
                A#m7    D#7
E pienze ‘e nun c’ha fa
                G#m7  A#m7 Bmaj7 B/C#
Pe’ n’ammore ca perde
               F# G#m7  F#/A#
Nisciuno venciarrá

Bmaj7
Voglia che voglia ‘e t’avè
A#m7                     D#7sus4 D#7
voglia ‘e t’astregnere a me
G#m7               C#7sus4 C#7
Senza ragione, accussi
 
e|---0-----0---|-----0-------0-|
B|-------------|---------------|
G|-1---1-2---2-|-2/3---3-3/4---|
D|-------------|---------------|
A|-------------|---------------|
E|-0-----2-----|-2/3-----3/4---|
 
F#      G#m7      Adim7    F#/A#
Pure si fosse pe’ l’urdema vota
Bmaj7
Voglia ‘e fa ammore cu’tte
A#m7                 D#7sus4  D#7
Voglia che voglia, pecchè?
G#m7
Sempe sta smania ‘e capi'
           Bm6        C#/D#
Ma ‘o core vó accussi

               C#maj7  A#m7  D#7sus4
Si nu juorne dimane
            G#        G#sus4 G#
Te turnasse a ‘ncuntrà
Cm7               C#maj7  A#m7  D#7
 Io nun sbagliasse niente
                Cm7  F#dim
O l’aggie fatte giá?
                  C#maj7 Ddim
Pecchè nuie simme nuie
 G7sus4      Cm7 F7
Ognuno ‘na mitá
               A#m7  Cm7  C#maj7  C#/D#
Simme fatte d’ammore
               G# A#m7  G#/C
L’ammore pô sbagliá

C#maj7
Voglia che voglia ‘e t’avè
Cm7                     F7sus4 F7
voglia ‘e t’astregnere a me
A#m7               D#7sus4 D#7
Senza ragione, accussi
G#      A#m7   Bdim7    G#/C
Pure si fosse pe’ l’urdema vota
C#maj7
Voglia ‘e fa ammore cu’tte
Cm7                 F7sus4  F7
Voglia che voglia, pecchè?
A#m7
Sempe sta smania ‘e capi'
           C#m6       D#7sus2  G#
Ma ‘o core vó accussi
 
C#maj7  Ddim  Cm7   B6
A#m7  C#  D#
 
G#      A#m7  Bdim7    G#/C
Pure si fosse pe’ l’urdema vota
C#maj7
Voglia ‘e fa ammore cu’tte
Cm7                 F7sus4 F7
Voglia che voglia, pecchè?
A#m7
Sempe sta smania ‘e capi'
           C#m6                G#
Ma ‘o core vó accussi
  
Legenda:
C=Do - D=Re - E=Mi - F=Fa - G=Sol - A=La - B=Si
La velocità base dell'autoscroll è di 40, ad ogni click aumenterà di 5 fino ad un massimo di 95.
Il tasto "pausa", scalerà di 5 ad ogni click fino ad arrivare a 0.

Commenti