What They'll Say About Us - FINNEAS

INSERIRE VIDEO E LINK AMAZON NELLO SPAZIO DIV
INSERIRE VIDEO
INSERIRE TESTO E ACCORDI NELLO SPAZIO PRE DATA
Thunder Transposer
G  G/F#  Em  D  
G             G/F#           Em
 You're tired now, lie down
 D
I'll be waitin'
G        G/F#            Em
 To give you the good news
    D
It might take patience
G         G/F#        Em
 And when you wake up,
    D
It won't be over
G           G/F#      Em
 So don't you give up
 D             C      Am6       Em7
We've got the time to take the world
     Am       D     D6      D7  D   G  G/F#
And make it better than it ever    was
 Em                  D        G  G/F#  Em  D
That's what they'll say about us
G     G/F#    Em           D
 If I say a cliche, it's 'cause I mean it
G    G/F#         Em              D
 We can't walk away, we gotta get in between it
G         G/F#     Em         D
 And when you wake up, we'll grow together
G         G/F#     Em
 So don't you give up
 D             C      Am6       Em7
We've got the time to take the world
     Am       D     D6      D7  D   G  G/F#
And make it better than it ever    was
 Em                  D        G  G/F#  Em  D
That's what they'll say about us
C                        Am6
I never said it would be easy
Em7                    Am
I'm never giving up, believe me
   D                 D6                      D7  D  Em
I used to think the pain would fade, but it never  does
 
[Interlude - Guitar Solo]
 
e|---2--3p2---3p2---|---3p2---3p2---0-------|
B|------------------|-------------------3---|
G|------------------|-----------------------|
D|------------------|-----------------------|
A|------------------|-----------------------|
E|------------------|-----------------------|
 
e|---2--3p2---3p2---|---3p2---3p2---0-------|----------------------|
B|------------------|-------------------3---|---1---0--------------|
G|------------------|-----------------------|----------------------|
D|------------------|-----------------------|----------------------|
A|------------------|-----------------------|----------------------|
E|------------------|-----------------------|----------------------|
G             G/F#           Em
 You're tired now, lie down
 D
I'll be waitin'
G        G/F#            Em
 To give you the good news
    D
It might take patience
G         G/F#           Em
 And if you  don't wake up,
      D
I'll know you tried to
G         G/F#           Em
 I wish you could see him
    D               G
He looks just like you
  
Legenda:
C=Do - D=Re - E=Mi - F=Fa - G=Sol - A=La - B=Si
La velocità base dell'autoscroll è di 40, ad ogni click aumenterà di 5 fino ad un massimo di 95.
Il tasto "pausa", scalerà di 5 ad ogni click fino ad arrivare a 0.

Commenti