Echoing - Kings of Leon

INSERIRE VIDEO E LINK AMAZON NELLO SPAZIO DIV
INSERIRE VIDEO
INSERIRE TESTO E ACCORDI NELLO SPAZIO PRE DATA
Thunder Transposer
C
  Wakin’ early in the mornin’
 
Waitin’ on the light of day
                                         Am  F
Whole new kind of feeling is on the way
 
C
I'm not scared of knowing
 
If we’re ever getting out
                                         Am  F
We could be here forever without a doubt
 
    C                              F
e|------------------------------------------------|
B|--5--5-5--5-5--5-5--5-5--5-5--5-/10--10-10--10--|
G|--5--5-5--5-5--5-5--5-5--5-5--5-/10--10-10--10--|
D|--5--5-5--5-5--5-5--5-5--5-5--5-/10--10-10--10--| x4
A|------------------------------------------------|
E|------------------------------------------------|

C
Time is always higher learning
 
I'm still barely making grades
                              Am  F
Just about imagination anyway
 
C
We are circling the wagons
 
Lining up in the single file
                                       Am  F
Members of the jury are standin’ trial

Em
Waiting on a memory
G                          F
Waiting on a memory, oh-oh-oh
                                          C
Said if you love me and you're willin' to dance
Am7                               F
    We could take it to the high sеas
                             C     Am7
Echoin’, echoin’ where do wе stand
 
    C     Dm   C     Dm   Em     Dm   C       C
e|--8~----10---8~----10---12~----10---8~-------------------|
B|--8~----10---8~----10---12~----10---8~-------------------|
G|--9~----10---9~----10---12~----10---9~------9---9----9---|
D|--------------------------------------------10--10---10--|
A|--------------------------------------------10--10---10--|
E|--------------------------------------------8---8----8---|

C
My heart’s hard of hearing
 
My head's fill of sand
                                              Am  F
Feet point both directions if you need a hand
 
C
Black water reflection
 
Lost in a city park
                                     Am  F
I can't find my way through the dark

Em
Waiting on a memory
G                          F
Waiting on a memory, oh-oh-oh
                                          C
Said if you love me and you're willin' to dance
Am7                               F
    We could take it to the high sеas
                             C     Am7
Echoin’, echoin’ where do wе stand
 
                             F
We’ll be sailin' on a wild breeze
                                          C
Well if you love me and you're willin’ to dance
Am7                               F
    We could take it to the high sеas
                     C    Am7
Echoin’, echoin’, echoin’
 
C                             F
  Someone’s well out into the sea (?)
C                            F
  Save you from the mountain height
C                          F
  We’ll be miles away from here
C                        F C
  We’ll be sailin’ human skies (?)
  
Legenda:
C=Do - D=Re - E=Mi - F=Fa - G=Sol - A=La - B=Si
La velocità base dell'autoscroll è di 40, ad ogni click aumenterà di 5 fino ad un massimo di 95.
Il tasto "pausa", scalerà di 5 ad ogni click fino ad arrivare a 0.

Commenti